ISO-10303-21;
HEADER;
FILE_DESCRIPTION (( 'STEP AP203' ),
    '1' );
FILE_NAME ('250630 STEP 1-400392-01_3782.STEP',
    '2025-06-30T10:34:28',
    ( '' ),
    ( '' ),
    'SwSTEP 2.0',
    'SolidWorks 2024',
    '' );
FILE_SCHEMA (( 'CONFIG_CONTROL_DESIGN' ));
ENDSEC;

DATA;
#1 = CARTESIAN_POINT ( 'NONE',  ( -7.999999999999976019, -40.00000000000001421, 0.000000000000000000 ) ) ;
#2 = AXIS2_PLACEMENT_3D ( 'NONE', #203, #103, #144 ) ;
#3 = CARTESIAN_POINT ( 'NONE',  ( -3.999999999999990674, -3.673940397442056022E-15, 0.000000000000000000 ) ) ;
#4 = AXIS2_PLACEMENT_3D ( 'NONE', #209, #91, #131 ) ;
#5 = CARTESIAN_POINT ( 'NONE',  ( -6.411542731880068402, -4.412262419343057140E-15, 0.000000000000000000 ) ) ;
#6 = EDGE_LOOP ( 'NONE', ( #201 ) ) ;
#7 = MANIFOLD_SOLID_BREP ( 'Revolve1', #105 ) ;
#8 = EDGE_CURVE ( 'NONE', #53, #53, #155, .T. ) ;
#9 = EDGE_LOOP ( 'NONE', ( #145 ) ) ;
#10 = EDGE_LOOP ( 'NONE', ( #224 ) ) ;
#11 = DATE_TIME_ROLE ( 'creation_date' ) ;
#12 = FACE_BOUND ( 'NONE', #166, .T. ) ;
#13 = PERSON_AND_ORGANIZATION ( #113, #76 ) ;
#14 = PLANE ( 'NONE',  #213 ) ;
#15 = DIRECTION ( 'NONE',  ( 1.000000000000000000, 3.061616997868383141E-16, 0.000000000000000000 ) ) ;
#16 = DESIGN_CONTEXT ( 'detailed design', #200, 'design' ) ;
#17 = CARTESIAN_POINT ( 'NONE',  ( 8.000000000000026645, -40.00000000000000000, 0.000000000000000000 ) ) ;
#18 = DIRECTION ( 'NONE',  ( 3.061616997868383141E-16, -1.000000000000000000, 0.000000000000000000 ) ) ;
#19 = VERTEX_POINT ( 'NONE', #233 ) ;
#20 = AXIS2_PLACEMENT_3D ( 'NONE', #207, #190, #56 ) ;
#21 = EDGE_CURVE ( 'NONE', #87, #87, #40, .T. ) ;
#22 = SHAPE_DEFINITION_REPRESENTATION ( #243, #39 ) ;
#23 = CARTESIAN_POINT ( 'NONE',  ( -3.999999999999980904, -31.00000000000000711, 0.000000000000000000 ) ) ;
#24 = ADVANCED_FACE ( 'NONE', ( #101, #165 ), #181, .T. ) ;
#25 = AXIS2_PLACEMENT_3D ( 'NONE', #118, #78, #135 ) ;
#26 = EDGE_LOOP ( 'NONE', ( #126 ) ) ;
#27 = ORIENTED_EDGE ( 'NONE', *, *, #136, .T. ) ;
#28 = FACE_BOUND ( 'NONE', #220, .T. ) ;
#29 = PERSON_AND_ORGANIZATION_ROLE ( 'creator' ) ;
#30 = EDGE_LOOP ( 'NONE', ( #184 ) ) ;
#31 = APPROVAL_DATE_TIME ( #107, #137 ) ;
#32 = VERTEX_POINT ( 'NONE', #210 ) ;
#33 = APPROVAL_PERSON_ORGANIZATION ( #158, #137, #205 ) ;
#34 = CARTESIAN_POINT ( 'NONE',  ( -8.000000000000000000, -4.898587196589413026E-15, 0.000000000000000000 ) ) ;
#35 = DIRECTION ( 'NONE',  ( 3.035766082959412415E-16, -1.000000000000000000, 0.000000000000000000 ) ) ;
#36 = DIRECTION ( 'NONE',  ( -1.000000000000000000, -3.061616997868383141E-16, -0.000000000000000000 ) ) ;
#37 = CARTESIAN_POINT ( 'NONE',  ( -8.000000000000000000, -4.898587196589413026E-15, 0.000000000000000000 ) ) ;
#38 = PERSON_AND_ORGANIZATION ( #113, #76 ) ;
#39 = ADVANCED_BREP_SHAPE_REPRESENTATION ( '250630 STEP 1-400392-01_3782', ( #7, #25 ), #96 ) ;
#40 = CIRCLE ( 'NONE', #230, 40.00000000000000711 ) ;
#41 = CC_DESIGN_APPROVAL ( #179, ( #112 ) ) ;
#42 = EDGE_LOOP ( 'NONE', ( #164 ) ) ;
#43 = PERSON_AND_ORGANIZATION_ROLE ( 'classification_officer' ) ;
#44 = EDGE_LOOP ( 'NONE', ( #199 ) ) ;
#45 = EDGE_LOOP ( 'NONE', ( #64 ) ) ;
#46 = DATE_AND_TIME ( #223, #180 ) ;
#47 = AXIS2_PLACEMENT_3D ( 'NONE', #132, #169, #191 ) ;
#48 = COORDINATED_UNIVERSAL_TIME_OFFSET ( 2, 0, .AHEAD. ) ;
#49 = FACE_OUTER_BOUND ( 'NONE', #9, .T. ) ;
#50 = CIRCLE ( 'NONE', #70, 31.00000000000000355 ) ;
#51 = DIRECTION ( 'NONE',  ( -3.035766082959412415E-16, 1.000000000000000000, 0.000000000000000000 ) ) ;
#52 = EDGE_CURVE ( 'NONE', #32, #32, #202, .T. ) ;
#53 = VERTEX_POINT ( 'NONE', #17 ) ;
#54 = FACE_OUTER_BOUND ( 'NONE', #241, .T. ) ;
#55 = UNCERTAINTY_MEASURE_WITH_UNIT (LENGTH_MEASURE( 1.000000000000000082E-05 ), #59, 'distance_accuracy_value', 'NONE');
#56 = DIRECTION ( 'NONE',  ( 3.077735199313689799E-16, -1.000000000000000000, 0.000000000000000000 ) ) ;
#57 = CC_DESIGN_APPROVAL ( #84, ( #122 ) ) ;
#58 = CALENDAR_DATE ( 2025, 30, 6 ) ;
#59 =( LENGTH_UNIT ( ) NAMED_UNIT ( * ) SI_UNIT ( .MILLI., .METRE. ) );
#60 = PRODUCT_DEFINITION ( 'UNKNOWN', '', #112, #16 ) ;
#61 = AXIS2_PLACEMENT_3D ( 'NONE', #125, #161, #242 ) ;
#62 = DIRECTION ( 'NONE',  ( -1.000000000000000000, -3.061616997868383141E-16, -0.000000000000000000 ) ) ;
#63 = CC_DESIGN_PERSON_AND_ORGANIZATION_ASSIGNMENT ( #38, #95, ( #168 ) ) ;
#64 = ORIENTED_EDGE ( 'NONE', *, *, #52, .F. ) ;
#65 = DIRECTION ( 'NONE',  ( 3.035766082959411922E-16, -1.000000000000000000, 0.000000000000000000 ) ) ;
#66 = CALENDAR_DATE ( 2025, 30, 6 ) ;
#67 = FACE_BOUND ( 'NONE', #42, .T. ) ;
#68 = PERSON_AND_ORGANIZATION ( #113, #76 ) ;
#69 = FACE_OUTER_BOUND ( 'NONE', #26, .T. ) ;
#70 = AXIS2_PLACEMENT_3D ( 'NONE', #3, #172, #73 ) ;
#71 = DIRECTION ( 'NONE',  ( -1.000000000000000000, -3.061616997868383141E-16, -0.000000000000000000 ) ) ;
#72 = DIRECTION ( 'NONE',  ( 2.668805347656626678E-16, -1.000000000000000000, 0.000000000000000000 ) ) ;
#73 = DIRECTION ( 'NONE',  ( 3.077735199313689799E-16, -1.000000000000000000, 0.000000000000000000 ) ) ;
#74 = ADVANCED_FACE ( 'NONE', ( #28, #238 ), #247, .F. ) ;
#75 = EDGE_CURVE ( 'NONE', #174, #174, #235, .T. ) ;
#76 = ORGANIZATION ( 'UNSPECIFIED', 'UNSPECIFIED', '' ) ;
#77 = COORDINATED_UNIVERSAL_TIME_OFFSET ( 2, 0, .AHEAD. ) ;
#78 = DIRECTION ( 'NONE',  ( 0.000000000000000000, 0.000000000000000000, 1.000000000000000000 ) ) ;
#79 = MECHANICAL_CONTEXT ( 'NONE', #97, 'mechanical' ) ;
#80 = EDGE_CURVE ( 'NONE', #171, #171, #159, .T. ) ;
#81 = EDGE_LOOP ( 'NONE', ( #85 ) ) ;
#82 = CONICAL_SURFACE ( 'NONE', #4, 31.00000000000000355, 1.308996938995750092 ) ;
#83 = DIRECTION ( 'NONE',  ( -1.000000000000000000, -3.061616997868383141E-16, -0.000000000000000000 ) ) ;
#84 = APPROVAL ( #215, 'UNSPECIFIED' ) ;
#85 = ORIENTED_EDGE ( 'NONE', *, *, #21, .T. ) ;
#86 = COORDINATED_UNIVERSAL_TIME_OFFSET ( 2, 0, .AHEAD. ) ;
#87 = VERTEX_POINT ( 'NONE', #1 ) ;
#88 = CC_DESIGN_APPROVAL ( #137, ( #60 ) ) ;
#89 = CALENDAR_DATE ( 2025, 30, 6 ) ;
#90 = CARTESIAN_POINT ( 'NONE',  ( 8.000000000000007105, -12.99999999999999822, 0.000000000000000000 ) ) ;
#91 = DIRECTION ( 'NONE',  ( -1.000000000000000000, -3.061616997868383141E-16, -0.000000000000000000 ) ) ;
#92 = CARTESIAN_POINT ( 'NONE',  ( -8.000000000000000000, -4.898587196589413026E-15, 0.000000000000000000 ) ) ;
#93 = AXIS2_PLACEMENT_3D ( 'NONE', #5, #83, #65 ) ;
#94 = CARTESIAN_POINT ( 'NONE',  ( 6.411542731880092383, -4.863247772463482936E-16, 0.000000000000000000 ) ) ;
#95 = PERSON_AND_ORGANIZATION_ROLE ( 'design_owner' ) ;
#96 =( GEOMETRIC_REPRESENTATION_CONTEXT ( 3 ) GLOBAL_UNCERTAINTY_ASSIGNED_CONTEXT ( ( #55 ) ) GLOBAL_UNIT_ASSIGNED_CONTEXT ( ( #59, #214, #98 ) ) REPRESENTATION_CONTEXT ( 'NONE', 'WORKASPACE' ) );
#97 = APPLICATION_CONTEXT ( 'configuration controlled 3d designs of mechanical parts and assemblies' ) ;
#98 =( NAMED_UNIT ( * ) SI_UNIT ( $, .STERADIAN. ) SOLID_ANGLE_UNIT ( ) );
#99 = PERSON_AND_ORGANIZATION ( #113, #76 ) ;
#100 = LOCAL_TIME ( 13, 34, 28.00000000000000000, #48 ) ;
#101 = FACE_OUTER_BOUND ( 'NONE', #148, .T. ) ;
#102 = AXIS2_PLACEMENT_3D ( 'NONE', #34, #117, #228 ) ;
#103 = DIRECTION ( 'NONE',  ( -1.000000000000000000, -3.061616997868383141E-16, -0.000000000000000000 ) ) ;
#104 = EDGE_CURVE ( 'NONE', #194, #194, #129, .T. ) ;
#105 = CLOSED_SHELL ( 'NONE', ( #186, #74, #24, #121, #227, #110, #163, #239 ) ) ;
#106 = ORIENTED_EDGE ( 'NONE', *, *, #80, .F. ) ;
#107 = DATE_AND_TIME ( #89, #218 ) ;
#108 = ORIENTED_EDGE ( 'NONE', *, *, #52, .T. ) ;
#109 = PERSON_AND_ORGANIZATION ( #113, #76 ) ;
#110 = ADVANCED_FACE ( 'NONE', ( #67, #154 ), #248, .T. ) ;
#111 = FACE_OUTER_BOUND ( 'NONE', #45, .T. ) ;
#112 = PRODUCT_DEFINITION_FORMATION_WITH_SPECIFIED_SOURCE ( 'ANY', '', #168, .NOT_KNOWN. ) ;
#113 = PERSON ( 'UNSPECIFIED', 'UNSPECIFIED', 'UNSPECIFIED', ('UNSPECIFIED'), ('UNSPECIFIED'), ('UNSPECIFIED') ) ;
#114 = FACE_OUTER_BOUND ( 'NONE', #6, .T. ) ;
#115 = CYLINDRICAL_SURFACE ( 'NONE', #102, 13.00000000000000178 ) ;
#116 = CARTESIAN_POINT ( 'NONE',  ( -7.999999999999996447, 12.99999999999999822, 0.000000000000000000 ) ) ;
#117 = DIRECTION ( 'NONE',  ( -1.000000000000000000, -3.061616997868383141E-16, -0.000000000000000000 ) ) ;
#118 = CARTESIAN_POINT ( 'NONE',  ( 0.000000000000000000, 0.000000000000000000, 0.000000000000000000 ) ) ;
#119 = AXIS2_PLACEMENT_3D ( 'NONE', #151, #156, #51 ) ;
#120 = APPROVAL_DATE_TIME ( #139, #84 ) ;
#121 = ADVANCED_FACE ( 'NONE', ( #111, #134 ), #82, .T. ) ;
#122 = SECURITY_CLASSIFICATION ( '', '', #167 ) ;
#123 = ORIENTED_EDGE ( 'NONE', *, *, #80, .T. ) ;
#124 = ORIENTED_EDGE ( 'NONE', *, *, #75, .T. ) ;
#125 = CARTESIAN_POINT ( 'NONE',  ( -8.000000000000000000, -4.898587196589413026E-15, 0.000000000000000000 ) ) ;
#126 = ORIENTED_EDGE ( 'NONE', *, *, #104, .F. ) ;
#127 = AXIS2_PLACEMENT_3D ( 'NONE', #157, #245, #72 ) ;
#128 = APPROVAL_STATUS ( 'not_yet_approved' ) ;
#129 = CIRCLE ( 'NONE', #195, 40.00000000000000000 ) ;
#130 = DIRECTION ( 'NONE',  ( -3.061616997868383141E-16, 1.000000000000000000, 0.000000000000000000 ) ) ;
#131 = DIRECTION ( 'NONE',  ( 3.077735199313689799E-16, -1.000000000000000000, 0.000000000000000000 ) ) ;
#132 = CARTESIAN_POINT ( 'NONE',  ( -7.999999999999996447, -4.898587196589411448E-15, 0.000000000000000000 ) ) ;
#133 = CC_DESIGN_PERSON_AND_ORGANIZATION_ASSIGNMENT ( #68, #29, ( #112 ) ) ;
#134 = FACE_BOUND ( 'NONE', #44, .T. ) ;
#135 = DIRECTION ( 'NONE',  ( 1.000000000000000000, 0.000000000000000000, 0.000000000000000000 ) ) ;
#136 = EDGE_CURVE ( 'NONE', #19, #19, #138, .T. ) ;
#137 = APPROVAL ( #170, 'UNSPECIFIED' ) ;
#138 = CIRCLE ( 'NONE', #20, 31.00000000000000000 ) ;
#139 = DATE_AND_TIME ( #58, #143 ) ;
#140 = AXIS2_PLACEMENT_3D ( 'NONE', #116, #15, #130 ) ;
#141 = CC_DESIGN_PERSON_AND_ORGANIZATION_ASSIGNMENT ( #149, #188, ( #112 ) ) ;
#142 = DIRECTION ( 'NONE',  ( 3.035766082959411922E-16, -1.000000000000000000, 0.000000000000000000 ) ) ;
#143 = LOCAL_TIME ( 13, 34, 28.00000000000000000, #77 ) ;
#144 = DIRECTION ( 'NONE',  ( 3.035766082959412415E-16, -1.000000000000000000, 0.000000000000000000 ) ) ;
#145 = ORIENTED_EDGE ( 'NONE', *, *, #8, .F. ) ;
#146 = EDGE_LOOP ( 'NONE', ( #123 ) ) ;
#147 = APPROVAL_ROLE ( '' ) ;
#148 = EDGE_LOOP ( 'NONE', ( #222 ) ) ;
#149 = PERSON_AND_ORGANIZATION ( #113, #76 ) ;
#150 = CC_DESIGN_DATE_AND_TIME_ASSIGNMENT ( #244, #11, ( #60 ) ) ;
#151 = CARTESIAN_POINT ( 'NONE',  ( 6.411542731880092383, -4.863247772463482936E-16, 0.000000000000000000 ) ) ;
#152 = DIRECTION ( 'NONE',  ( 3.035766082959412415E-16, -1.000000000000000000, 0.000000000000000000 ) ) ;
#153 = PRODUCT_RELATED_PRODUCT_CATEGORY ( 'detail', '', ( #168 ) ) ;
#154 = FACE_OUTER_BOUND ( 'NONE', #30, .T. ) ;
#155 = CIRCLE ( 'NONE', #2, 40.00000000000000000 ) ;
#156 = DIRECTION ( 'NONE',  ( 1.000000000000000000, 3.061616997868383141E-16, 0.000000000000000000 ) ) ;
#157 = CARTESIAN_POINT ( 'NONE',  ( 8.000000000000003553, 1.540743955509788682E-30, 0.000000000000000000 ) ) ;
#158 = PERSON_AND_ORGANIZATION ( #113, #76 ) ;
#159 = CIRCLE ( 'NONE', #47, 13.00000000000000355 ) ;
#160 = CARTESIAN_POINT ( 'NONE',  ( -7.999999999999988454, -4.898587196589409082E-15, 0.000000000000000000 ) ) ;
#161 = DIRECTION ( 'NONE',  ( -1.000000000000000000, -3.061616997868383141E-16, -0.000000000000000000 ) ) ;
#162 = CC_DESIGN_PERSON_AND_ORGANIZATION_ASSIGNMENT ( #13, #43, ( #122 ) ) ;
#163 = ADVANCED_FACE ( 'NONE', ( #69, #231 ), #212, .T. ) ;
#164 = ORIENTED_EDGE ( 'NONE', *, *, #136, .F. ) ;
#165 = FACE_OUTER_BOUND ( 'NONE', #236, .T. ) ;
#166 = EDGE_LOOP ( 'NONE', ( #124 ) ) ;
#167 = SECURITY_CLASSIFICATION_LEVEL ( 'unclassified' ) ;
#168 = PRODUCT ( '250630 STEP 1-400392-01_3782', '250630 STEP 1-400392-01_3782', '', ( #79 ) ) ;
#169 = DIRECTION ( 'NONE',  ( -1.000000000000000000, -3.061616997868383141E-16, -0.000000000000000000 ) ) ;
#170 = APPROVAL_STATUS ( 'not_yet_approved' ) ;
#171 = VERTEX_POINT ( 'NONE', #234 ) ;
#172 = DIRECTION ( 'NONE',  ( -1.000000000000000000, -3.061616997868383141E-16, -0.000000000000000000 ) ) ;
#173 = FACE_OUTER_BOUND ( 'NONE', #146, .T. ) ;
#174 = VERTEX_POINT ( 'NONE', #90 ) ;
#175 = APPROVAL_ROLE ( '' ) ;
#176 = APPLICATION_PROTOCOL_DEFINITION ( 'international standard', 'config_control_design', 1994, #200 ) ;
#177 = APPROVAL_PERSON_ORGANIZATION ( #109, #179, #147 ) ;
#178 = APPLICATION_PROTOCOL_DEFINITION ( 'international standard', 'config_control_design', 1994, #97 ) ;
#179 = APPROVAL ( #128, 'UNSPECIFIED' ) ;
#180 = LOCAL_TIME ( 13, 34, 28.00000000000000000, #86 ) ;
#181 = CYLINDRICAL_SURFACE ( 'NONE', #61, 40.00000000000000711 ) ;
#182 = AXIS2_PLACEMENT_3D ( 'NONE', #92, #71, #192 ) ;
#183 = DATE_AND_TIME ( #237, #189 ) ;
#184 = ORIENTED_EDGE ( 'NONE', *, *, #104, .T. ) ;
#185 = ORIENTED_EDGE ( 'NONE', *, *, #75, .F. ) ;
#186 = ADVANCED_FACE ( 'NONE', ( #208, #173 ), #115, .F. ) ;
#187 = PERSON_AND_ORGANIZATION_ROLE ( 'creator' ) ;
#188 = PERSON_AND_ORGANIZATION_ROLE ( 'design_supplier' ) ;
#189 = LOCAL_TIME ( 13, 34, 28.00000000000000000, #221 ) ;
#190 = DIRECTION ( 'NONE',  ( -1.000000000000000000, -3.061616997868383141E-16, -0.000000000000000000 ) ) ;
#191 = DIRECTION ( 'NONE',  ( 2.668805347656625692E-16, -1.000000000000000000, 0.000000000000000000 ) ) ;
#192 = DIRECTION ( 'NONE',  ( 2.797941090285172590E-16, -1.000000000000000000, 0.000000000000000000 ) ) ;
#193 = CARTESIAN_POINT ( 'NONE',  ( 7.999999999999996447, 40.00000000000000000, 0.000000000000000000 ) ) ;
#194 = VERTEX_POINT ( 'NONE', #196 ) ;
#195 = AXIS2_PLACEMENT_3D ( 'NONE', #94, #36, #152 ) ;
#196 = CARTESIAN_POINT ( 'NONE',  ( 6.411542731880103929, -40.00000000000000000, 0.000000000000000000 ) ) ;
#197 = VERTEX_POINT ( 'NONE', #23 ) ;
#198 = APPROVAL_PERSON_ORGANIZATION ( #99, #84, #175 ) ;
#199 = ORIENTED_EDGE ( 'NONE', *, *, #219, .T. ) ;
#200 = APPLICATION_CONTEXT ( 'configuration controlled 3d designs of mechanical parts and assemblies' ) ;
#201 = ORIENTED_EDGE ( 'NONE', *, *, #219, .F. ) ;
#202 = CIRCLE ( 'NONE', #93, 40.00000000000000711 ) ;
#203 = CARTESIAN_POINT ( 'NONE',  ( 8.000000000000014211, 4.622231866529366047E-30, 0.000000000000000000 ) ) ;
#204 = APPROVAL_DATE_TIME ( #46, #179 ) ;
#205 = APPROVAL_ROLE ( '' ) ;
#206 = AXIS2_PLACEMENT_3D ( 'NONE', #37, #226, #35 ) ;
#207 = CARTESIAN_POINT ( 'NONE',  ( 4.000000000000008882, -1.224646799147350495E-15, 0.000000000000000000 ) ) ;
#208 = FACE_OUTER_BOUND ( 'NONE', #217, .T. ) ;
#209 = CARTESIAN_POINT ( 'NONE',  ( -3.999999999999990674, -3.673940397442056022E-15, 0.000000000000000000 ) ) ;
#210 = CARTESIAN_POINT ( 'NONE',  ( -6.411542731880056856, -40.00000000000001421, 0.000000000000000000 ) ) ;
#211 = CC_DESIGN_SECURITY_CLASSIFICATION ( #122, ( #112 ) ) ;
#212 = CYLINDRICAL_SURFACE ( 'NONE', #206, 40.00000000000000000 ) ;
#213 = AXIS2_PLACEMENT_3D ( 'NONE', #193, #229, #18 ) ;
#214 =( NAMED_UNIT ( * ) PLANE_ANGLE_UNIT ( ) SI_UNIT ( $, .RADIAN. ) );
#215 = APPROVAL_STATUS ( 'not_yet_approved' ) ;
#216 = CC_DESIGN_PERSON_AND_ORGANIZATION_ASSIGNMENT ( #246, #187, ( #60 ) ) ;
#217 = EDGE_LOOP ( 'NONE', ( #185 ) ) ;
#218 = LOCAL_TIME ( 13, 34, 28.00000000000000000, #225 ) ;
#219 = EDGE_CURVE ( 'NONE', #197, #197, #50, .T. ) ;
#220 = EDGE_LOOP ( 'NONE', ( #106 ) ) ;
#221 = COORDINATED_UNIVERSAL_TIME_OFFSET ( 2, 0, .AHEAD. ) ;
#222 = ORIENTED_EDGE ( 'NONE', *, *, #21, .F. ) ;
#223 = CALENDAR_DATE ( 2025, 30, 6 ) ;
#224 = ORIENTED_EDGE ( 'NONE', *, *, #8, .T. ) ;
#225 = COORDINATED_UNIVERSAL_TIME_OFFSET ( 2, 0, .AHEAD. ) ;
#226 = DIRECTION ( 'NONE',  ( -1.000000000000000000, -3.061616997868383141E-16, -0.000000000000000000 ) ) ;
#227 = ADVANCED_FACE ( 'NONE', ( #114, #54 ), #249, .T. ) ;
#228 = DIRECTION ( 'NONE',  ( 2.668805347656625692E-16, -1.000000000000000000, 0.000000000000000000 ) ) ;
#229 = DIRECTION ( 'NONE',  ( -1.000000000000000000, -3.061616997868383141E-16, 0.000000000000000000 ) ) ;
#230 = AXIS2_PLACEMENT_3D ( 'NONE', #160, #62, #142 ) ;
#231 = FACE_OUTER_BOUND ( 'NONE', #10, .T. ) ;
#232 = CC_DESIGN_DATE_AND_TIME_ASSIGNMENT ( #183, #240, ( #122 ) ) ;
#233 = CARTESIAN_POINT ( 'NONE',  ( 4.000000000000018652, -31.00000000000000000, 0.000000000000000000 ) ) ;
#234 = CARTESIAN_POINT ( 'NONE',  ( -7.999999999999992895, -13.00000000000000888, 0.000000000000000000 ) ) ;
#235 = CIRCLE ( 'NONE', #127, 12.99999999999999822 ) ;
#236 = EDGE_LOOP ( 'NONE', ( #108 ) ) ;
#237 = CALENDAR_DATE ( 2025, 30, 6 ) ;
#238 = FACE_OUTER_BOUND ( 'NONE', #81, .T. ) ;
#239 = ADVANCED_FACE ( 'NONE', ( #49, #12 ), #14, .F. ) ;
#240 = DATE_TIME_ROLE ( 'classification_date' ) ;
#241 = EDGE_LOOP ( 'NONE', ( #27 ) ) ;
#242 = DIRECTION ( 'NONE',  ( 3.035766082959411922E-16, -1.000000000000000000, 0.000000000000000000 ) ) ;
#243 = PRODUCT_DEFINITION_SHAPE ( 'NONE', 'NONE',  #60 ) ;
#244 = DATE_AND_TIME ( #66, #100 ) ;
#245 = DIRECTION ( 'NONE',  ( -1.000000000000000000, -3.061616997868383141E-16, -0.000000000000000000 ) ) ;
#246 = PERSON_AND_ORGANIZATION ( #113, #76 ) ;
#247 = PLANE ( 'NONE',  #140 ) ;
#248 = CONICAL_SURFACE ( 'NONE', #119, 40.00000000000000000, 1.308996938995749426 ) ;
#249 = CYLINDRICAL_SURFACE ( 'NONE', #182, 31.00000000000000000 ) ;
ENDSEC;
END-ISO-10303-21;
